Tablature:Seatbelt (Bass)

From Weezerpedia
Jump to: navigation, search
Tablaturetemplateimage.png This is a Tablature page, which contains the written musical portion of a song. Pages in the Tablature line should be kept mostly separate from the main pages, as they are for different purposes.

The work on these pages are not endorsed or official in any way, as they were created by a Weezerpedia user for use among other fans.


Created by deckra

Song: "Seatbelt"

Artist: Supersport 2000

Album: Shine Like the Holy Grail (1995-1997)

Type: Bass

Tuning: Standard

[main riff] (0:04)

G|-------------------------------------------7-7-5-5-5-5-5-5-4-4-0-|
D|---------------------------7-7-5-5-5-5-5-5-----------------------|
A|-----------7-7-5-5-5-5-5-5---------------------------------------|
E|-5-5-5-5-5-------------------------------------------------------| (x8)


[other riff] (1:13)

G|-----------------------------------|
D|-----------------------------------|
A|----------3>-5-5------------6>-8-8-|
E|-1>-3-3------------1>-3-3----------| (x2)


[main riff] (1:32)

G|-------------------------------------------7-7-5-5-5-5-5-5-4-4-0-|
D|---------------------------7-7-5-5-5-5-5-5-----------------------|
A|-----------7-7-5-5-5-5-5-5---------------------------------------|
E|-5-5-5-5-5-------------------------------------------------------| (x4)


[other riff] (2:06)

G|-----------------------------------|
D|-----------------------------------|
A|----------3>-5-5------------6>-8-8-|
E|-1>-3-3------------1>-3-3----------| (x4)

Legend

> = strum to rhythm

See also