Tablature:Sr. Benito (Bass)

From Weezerpedia
Jump to: navigation, search
Tablaturetemplateimage.png This is a Tablature page, which contains the written musical portion of a song. Pages in the Tablature line should be kept mostly separate from the main pages, as they are for different purposes.

The work on these pages are not endorsed or official in any way, as they were created by a Weezerpedia user for use among other fans.


Created by deckra

Song: "Sr. Benito"

Artist: Supersport 2000

Album: Shine Like the Holy Grail (1995-1997)

Type: Bass

Tuning: Half-step down

half-step down

[intro] (0:05)

G|----------------------------------------------------|
D|----------------------------------------------------|
A|-2--2-0------0-2--2-0------0-2--2-0------0-2--2-0---|
E|--------2--2----------2--2----------2--2----------2-|


[verse] (0:13)

G|----------------------------------------------------|
D|----------------------------------------------------|
A|-2--2-0------0-2--2-0------0-2--2-0------0-2--2-0---|
E|--------2--2----------2--2----------2--2----------2-|

G|---------------------------------------------------------|
D|---------------------------------------------------------|
A|-2--2-0------0-2--2-0------0-2--2-0------0-2--2-0--------|
E|--------2--2----------2--2----------2--2----------2--2-2-|


[short bridge] (0:27)

G|--------------------------------|
D|--------------------------------|
A|--------------------------------|
E|-0--0-0--2--2-2--0--0-0--2--2-2-|

G|------------------------|
D|------------------------|
A|-2--2-0------0-2--2-0---|
E|--------2--2----------2-|


[verse] (0:36)

G|----------------------------------------------------|
D|----------------------------------------------------|
A|-2--2-0------0-2--2-0------0-2--2-0------0-2--2-0---|
E|--------2--2----------2--2----------2--2----------2-|

G|-------------------------------------------------------------|
D|-------------------------------------------------------------|
A|---0-2--2-0------0-2--2-0------0-2--2-0------0-2--2-0--------|
E|-2----------2--2----------2--2----------2--2----------2--2-2-|


[chorus] (0:50)

G|--------------------------------|
D|--------------------------------|
A|-------------------------2--2-2-|
E|-0--0-0--5--5-5--2--2-2---------| (x6)

G|------------------------|
D|------------------------|
A|-2--2-0------0-2--2-0---|
E|--------2--2----------2-|


[verse] (1:18)

G|----------------------------------------------------|
D|----------------------------------------------------|
A|-2--2-0------0-2--2-0------0-2--2-0------0-2--2-0---|
E|--------2--2----------2--2----------2--2----------2-|

G|-------------------------------------------------------------|
D|-------------------------------------------------------------|
A|---0-2--2-0------0-2--2-0------0-2--2-0------0-2--2-0--------|
E|-2----------2--2----------2--2----------2--2----------2--2-2-|


[short bridge] (1:33)

G|--------------------------------|
D|--------------------------------|
A|--------------------------------|
E|-0--0-0--2--2-2--0--0-0--2--2-2-|

G|-----------------------------|
D|-----------------------------|
A|-2--2-0------0-2--2-0------0-|
E|--------2--2----------2--2---|

G|--------------------------------|
D|--------------------------------|
A|--------------------------------|
E|-0--0-0--2--2-2--0--0-0--2--2-2-|

G|--------------------------------|
D|--------------------------------|
A|-2--2-0------0-2--2-0-----------|
E|--------2--2----------2--2--2-2-|


[chorus] (1:48)

G|--------------------------------|
D|--------------------------------|
A|-------------------------2--2-2-|
E|-0--0-0--5--5-5--2--2-2---------| (x10)


[verse/outro] (2:26)

G|----------------------------------------------------|
D|----------------------------------------------------|
A|-2--2-0------0-2--2-0------0-2--2-0------0-2--2-0---|
E|--------2--2----------2--2----------2--2----------2-|

See also